¿Donde consigo esta tablatura? Leido 8.927 veces

 
 
Pregunta
Resuelta.
Hola necesito que alguien me diga donde puedo conseguir la tablatura de una canción de metallica llamada: SANITURIUM
 

 





 
Respuesta correcta
< > = let ring

e|-----<12>--------3--353--/2---------|
B|---------<12>-----------------------|
G|------------------------------------|
D|------------------------------------|
A|------------------------------------|
E|--0---------------------------------|

e|-----<12>-----------2----2---3------|
B|---------<12>---------0-------------|
G|------------------------------------|
A|------------------------------------|
E|--0---------------------------------|

e|-----<12>--------------<12>---------|
B|---------<12>--------------<12>-----|
G|------------------------------------|
D|------------------------------------|
A|------------------------------------|
E|--0---------------0-----------------|

e|-----<12>-------------<12>----------|
B|---------<12>-------------<12>------|
G|------------------------------<12>--|
D|------------------------------------|
A|------------------------------------|
E|--0---------------0-----------------|

e|------------------------------------|
B|------------------------------------|
G|-----0----0----0--------------------|
D|----4----5----7----0-------0--------|
A|---2----3----5----4------/2-------0-|
E|--0----0----0----5---5--3----3--5---|


 

 


 
k ay!
tokas la guitarra?
yo tb jeje
buska en
www.ultimate-guitar.com
o en
www.911tabs.com
o en
www.tablatures.tk
o en
www.metaltabs.com

asi a lo pokito XD
saludos!!!

 

 


 
Respuesta correcta
< > = let ring

e|-----<12>--------3--353--/2---------|
B|---------<12>-----------------------|
G|------------------------------------|
D|------------------------------------|
A|------------------------------------|
E|--0---------------------------------|

e|-----<12>-----------2----2---3------|
B|---------<12>---------0-------------|
G|------------------------------------|
A|------------------------------------|
E|--0---------------------------------|

e|-----<12>--------------<12>---------|
B|---------<12>--------------<12>-----|
G|------------------------------------|
D|------------------------------------|
A|------------------------------------|
E|--0---------------0-----------------|

e|-----<12>-------------<12>----------|
B|---------<12>-------------<12>------|
G|------------------------------<12>--|
D|------------------------------------|
A|------------------------------------|
E|--0---------------0-----------------|

e|------------------------------------|
B|------------------------------------|
G|-----0----0----0--------------------|
D|----4----5----7----0-------0--------|
A|---2----3----5----4------/2-------0-|
E|--0----0----0----5---5--3----3--5---|